ISO-10303-21;
HEADER;
/* Generated by software containing ST-Developer
 * from STEP Tools, Inc. (www.steptools.com) 
 */

FILE_DESCRIPTION(
/* description */ (''),
/* implementation_level */ '2;1');

FILE_NAME(
/* name */ 
'S:\\Projects\\RS&H\\KSC-EM2-ML\\Task Orders\\TO-007 - HITS\\Developme
nt\\Cut Sheets\\ScratchPad\\Acopian\\Acopian GB Bracket.stp',
/* time_stamp */ '2020-03-09T14:34:45-04:00',
/* author */ ('giordanog'),
/* organization */ (''),
/* preprocessor_version */ 'ST-DEVELOPER v18',
/* originating_system */ 'Autodesk Inventor 2020',
/* authorisation */ '');

FILE_SCHEMA (('AUTOMOTIVE_DESIGN { 1 0 10303 214 3 1 1 }'));
ENDSEC;

DATA;
#10=MECHANICAL_DESIGN_GEOMETRIC_PRESENTATION_REPRESENTATION('',(#13),#419);
#11=SHAPE_REPRESENTATION_RELATIONSHIP('SRR','None',#429,#12);
#12=ADVANCED_BREP_SHAPE_REPRESENTATION('',(#14),#418);
#13=STYLED_ITEM('',(#438),#14);
#14=MANIFOLD_SOLID_BREP('Solid1',#247);
#15=FACE_BOUND('',#46,.T.);
#16=FACE_BOUND('',#47,.T.);
#17=FACE_BOUND('',#55,.T.);
#18=FACE_BOUND('',#56,.T.);
#19=PLANE('',#275);
#20=PLANE('',#276);
#21=PLANE('',#277);
#22=PLANE('',#278);
#23=PLANE('',#279);
#24=PLANE('',#280);
#25=PLANE('',#281);
#26=PLANE('',#282);
#27=PLANE('',#283);
#28=PLANE('',#284);
#29=FACE_OUTER_BOUND('',#41,.T.);
#30=FACE_OUTER_BOUND('',#42,.T.);
#31=FACE_OUTER_BOUND('',#43,.T.);
#32=FACE_OUTER_BOUND('',#44,.T.);
#33=FACE_OUTER_BOUND('',#45,.T.);
#34=FACE_OUTER_BOUND('',#48,.T.);
#35=FACE_OUTER_BOUND('',#49,.T.);
#36=FACE_OUTER_BOUND('',#50,.T.);
#37=FACE_OUTER_BOUND('',#51,.T.);
#38=FACE_OUTER_BOUND('',#52,.T.);
#39=FACE_OUTER_BOUND('',#53,.T.);
#40=FACE_OUTER_BOUND('',#54,.T.);
#41=EDGE_LOOP('',(#169,#170,#171,#172,#173));
#42=EDGE_LOOP('',(#174,#175,#176,#177,#178));
#43=EDGE_LOOP('',(#179,#180,#181,#182));
#44=EDGE_LOOP('',(#183,#184,#185,#186));
#45=EDGE_LOOP('',(#187,#188,#189,#190));
#46=EDGE_LOOP('',(#191,#192));
#47=EDGE_LOOP('',(#193,#194));
#48=EDGE_LOOP('',(#195,#196,#197,#198));
#49=EDGE_LOOP('',(#199,#200,#201,#202));
#50=EDGE_LOOP('',(#203,#204,#205,#206,#207,#208,#209,#210));
#51=EDGE_LOOP('',(#211,#212,#213,#214,#215,#216,#217,#218));
#52=EDGE_LOOP('',(#219,#220,#221,#222));
#53=EDGE_LOOP('',(#223,#224,#225,#226));
#54=EDGE_LOOP('',(#227,#228,#229,#230));
#55=EDGE_LOOP('',(#231));
#56=EDGE_LOOP('',(#232));
#57=LINE('',#356,#83);
#58=LINE('',#364,#84);
#59=LINE('',#369,#85);
#60=LINE('',#371,#86);
#61=LINE('',#373,#87);
#62=LINE('',#374,#88);
#63=LINE('',#378,#89);
#64=LINE('',#380,#90);
#65=LINE('',#382,#91);
#66=LINE('',#383,#92);
#67=LINE('',#385,#93);
#68=LINE('',#386,#94);
#69=LINE('',#389,#95);
#70=LINE('',#391,#96);
#71=LINE('',#392,#97);
#72=LINE('',#395,#98);
#73=LINE('',#397,#99);
#74=LINE('',#398,#100);
#75=LINE('',#401,#101);
#76=LINE('',#403,#102);
#77=LINE('',#404,#103);
#78=LINE('',#407,#104);
#79=LINE('',#409,#105);
#80=LINE('',#410,#106);
#81=LINE('',#412,#107);
#82=LINE('',#414,#108);
#83=VECTOR('',#293,0.0855);
#84=VECTOR('',#302,0.0855);
#85=VECTOR('',#307,0.393700787401575);
#86=VECTOR('',#308,0.393700787401575);
#87=VECTOR('',#309,0.393700787401575);
#88=VECTOR('',#310,0.393700787401575);
#89=VECTOR('',#313,0.393700787401575);
#90=VECTOR('',#314,0.393700787401575);
#91=VECTOR('',#315,0.393700787401575);
#92=VECTOR('',#316,0.393700787401575);
#93=VECTOR('',#319,0.393700787401575);
#94=VECTOR('',#320,0.393700787401575);
#95=VECTOR('',#323,0.393700787401575);
#96=VECTOR('',#324,0.393700787401575);
#97=VECTOR('',#325,0.393700787401575);
#98=VECTOR('',#328,0.393700787401575);
#99=VECTOR('',#329,0.393700787401575);
#100=VECTOR('',#330,0.393700787401575);
#101=VECTOR('',#333,0.393700787401575);
#102=VECTOR('',#334,0.393700787401575);
#103=VECTOR('',#335,0.393700787401575);
#104=VECTOR('',#338,0.393700787401575);
#105=VECTOR('',#339,0.393700787401575);
#106=VECTOR('',#340,0.393700787401575);
#107=VECTOR('',#343,0.393700787401575);
#108=VECTOR('',#346,0.393700787401575);
#109=CIRCLE('',#268,0.0855);
#110=CIRCLE('',#269,0.0855);
#111=CIRCLE('',#270,0.0855);
#112=CIRCLE('',#272,0.0855);
#113=CIRCLE('',#273,0.0855);
#114=CIRCLE('',#274,0.0855);
#115=VERTEX_POINT('',#351);
#116=VERTEX_POINT('',#352);
#117=VERTEX_POINT('',#355);
#118=VERTEX_POINT('',#359);
#119=VERTEX_POINT('',#360);
#120=VERTEX_POINT('',#363);
#121=VERTEX_POINT('',#367);
#122=VERTEX_POINT('',#368);
#123=VERTEX_POINT('',#370);
#124=VERTEX_POINT('',#372);
#125=VERTEX_POINT('',#376);
#126=VERTEX_POINT('',#377);
#127=VERTEX_POINT('',#379);
#128=VERTEX_POINT('',#381);
#129=VERTEX_POINT('',#388);
#130=VERTEX_POINT('',#390);
#131=VERTEX_POINT('',#394);
#132=VERTEX_POINT('',#396);
#133=VERTEX_POINT('',#400);
#134=VERTEX_POINT('',#402);
#135=VERTEX_POINT('',#406);
#136=VERTEX_POINT('',#408);
#137=EDGE_CURVE('',#115,#116,#109,.T.);
#138=EDGE_CURVE('',#116,#115,#110,.T.);
#139=EDGE_CURVE('',#116,#117,#57,.T.);
#140=EDGE_CURVE('',#117,#117,#111,.T.);
#141=EDGE_CURVE('',#118,#119,#112,.T.);
#142=EDGE_CURVE('',#119,#118,#113,.T.);
#143=EDGE_CURVE('',#119,#120,#58,.T.);
#144=EDGE_CURVE('',#120,#120,#114,.T.);
#145=EDGE_CURVE('',#121,#122,#59,.T.);
#146=EDGE_CURVE('',#123,#121,#60,.T.);
#147=EDGE_CURVE('',#123,#124,#61,.T.);
#148=EDGE_CURVE('',#122,#124,#62,.T.);
#149=EDGE_CURVE('',#125,#126,#63,.T.);
#150=EDGE_CURVE('',#127,#125,#64,.T.);
#151=EDGE_CURVE('',#127,#128,#65,.T.);
#152=EDGE_CURVE('',#126,#128,#66,.T.);
#153=EDGE_CURVE('',#124,#127,#67,.T.);
#154=EDGE_CURVE('',#128,#123,#68,.T.);
#155=EDGE_CURVE('',#126,#129,#69,.T.);
#156=EDGE_CURVE('',#129,#130,#70,.T.);
#157=EDGE_CURVE('',#130,#125,#71,.T.);
#158=EDGE_CURVE('',#122,#131,#72,.T.);
#159=EDGE_CURVE('',#131,#132,#73,.T.);
#160=EDGE_CURVE('',#132,#121,#74,.T.);
#161=EDGE_CURVE('',#133,#130,#75,.T.);
#162=EDGE_CURVE('',#133,#134,#76,.T.);
#163=EDGE_CURVE('',#134,#131,#77,.T.);
#164=EDGE_CURVE('',#135,#132,#78,.T.);
#165=EDGE_CURVE('',#135,#136,#79,.T.);
#166=EDGE_CURVE('',#136,#129,#80,.T.);
#167=EDGE_CURVE('',#134,#135,#81,.T.);
#168=EDGE_CURVE('',#136,#133,#82,.T.);
#169=ORIENTED_EDGE('',*,*,#137,.F.);
#170=ORIENTED_EDGE('',*,*,#138,.F.);
#171=ORIENTED_EDGE('',*,*,#139,.T.);
#172=ORIENTED_EDGE('',*,*,#140,.F.);
#173=ORIENTED_EDGE('',*,*,#139,.F.);
#174=ORIENTED_EDGE('',*,*,#141,.F.);
#175=ORIENTED_EDGE('',*,*,#142,.F.);
#176=ORIENTED_EDGE('',*,*,#143,.T.);
#177=ORIENTED_EDGE('',*,*,#144,.F.);
#178=ORIENTED_EDGE('',*,*,#143,.F.);
#179=ORIENTED_EDGE('',*,*,#145,.F.);
#180=ORIENTED_EDGE('',*,*,#146,.F.);
#181=ORIENTED_EDGE('',*,*,#147,.T.);
#182=ORIENTED_EDGE('',*,*,#148,.F.);
#183=ORIENTED_EDGE('',*,*,#149,.F.);
#184=ORIENTED_EDGE('',*,*,#150,.F.);
#185=ORIENTED_EDGE('',*,*,#151,.T.);
#186=ORIENTED_EDGE('',*,*,#152,.F.);
#187=ORIENTED_EDGE('',*,*,#153,.F.);
#188=ORIENTED_EDGE('',*,*,#147,.F.);
#189=ORIENTED_EDGE('',*,*,#154,.F.);
#190=ORIENTED_EDGE('',*,*,#151,.F.);
#191=ORIENTED_EDGE('',*,*,#137,.T.);
#192=ORIENTED_EDGE('',*,*,#138,.T.);
#193=ORIENTED_EDGE('',*,*,#141,.T.);
#194=ORIENTED_EDGE('',*,*,#142,.T.);
#195=ORIENTED_EDGE('',*,*,#149,.T.);
#196=ORIENTED_EDGE('',*,*,#155,.T.);
#197=ORIENTED_EDGE('',*,*,#156,.T.);
#198=ORIENTED_EDGE('',*,*,#157,.T.);
#199=ORIENTED_EDGE('',*,*,#145,.T.);
#200=ORIENTED_EDGE('',*,*,#158,.T.);
#201=ORIENTED_EDGE('',*,*,#159,.T.);
#202=ORIENTED_EDGE('',*,*,#160,.T.);
#203=ORIENTED_EDGE('',*,*,#148,.T.);
#204=ORIENTED_EDGE('',*,*,#153,.T.);
#205=ORIENTED_EDGE('',*,*,#150,.T.);
#206=ORIENTED_EDGE('',*,*,#157,.F.);
#207=ORIENTED_EDGE('',*,*,#161,.F.);
#208=ORIENTED_EDGE('',*,*,#162,.T.);
#209=ORIENTED_EDGE('',*,*,#163,.T.);
#210=ORIENTED_EDGE('',*,*,#158,.F.);
#211=ORIENTED_EDGE('',*,*,#146,.T.);
#212=ORIENTED_EDGE('',*,*,#160,.F.);
#213=ORIENTED_EDGE('',*,*,#164,.F.);
#214=ORIENTED_EDGE('',*,*,#165,.T.);
#215=ORIENTED_EDGE('',*,*,#166,.T.);
#216=ORIENTED_EDGE('',*,*,#155,.F.);
#217=ORIENTED_EDGE('',*,*,#152,.T.);
#218=ORIENTED_EDGE('',*,*,#154,.T.);
#219=ORIENTED_EDGE('',*,*,#167,.T.);
#220=ORIENTED_EDGE('',*,*,#164,.T.);
#221=ORIENTED_EDGE('',*,*,#159,.F.);
#222=ORIENTED_EDGE('',*,*,#163,.F.);
#223=ORIENTED_EDGE('',*,*,#168,.T.);
#224=ORIENTED_EDGE('',*,*,#161,.T.);
#225=ORIENTED_EDGE('',*,*,#156,.F.);
#226=ORIENTED_EDGE('',*,*,#166,.F.);
#227=ORIENTED_EDGE('',*,*,#168,.F.);
#228=ORIENTED_EDGE('',*,*,#165,.F.);
#229=ORIENTED_EDGE('',*,*,#167,.F.);
#230=ORIENTED_EDGE('',*,*,#162,.F.);
#231=ORIENTED_EDGE('',*,*,#140,.T.);
#232=ORIENTED_EDGE('',*,*,#144,.T.);
#233=CYLINDRICAL_SURFACE('',#267,0.0855);
#234=CYLINDRICAL_SURFACE('',#271,0.0855);
#235=ADVANCED_FACE('',(#29),#233,.F.);
#236=ADVANCED_FACE('',(#30),#234,.F.);
#237=ADVANCED_FACE('',(#31),#19,.F.);
#238=ADVANCED_FACE('',(#32),#20,.F.);
#239=ADVANCED_FACE('',(#33,#15,#16),#21,.F.);
#240=ADVANCED_FACE('',(#34),#22,.T.);
#241=ADVANCED_FACE('',(#35),#23,.T.);
#242=ADVANCED_FACE('',(#36),#24,.T.);
#243=ADVANCED_FACE('',(#37),#25,.T.);
#244=ADVANCED_FACE('',(#38),#26,.T.);
#245=ADVANCED_FACE('',(#39),#27,.T.);
#246=ADVANCED_FACE('',(#40,#17,#18),#28,.F.);
#247=CLOSED_SHELL('',(#235,#236,#237,#238,#239,#240,#241,#242,#243,#244,
#245,#246));
#248=DERIVED_UNIT_ELEMENT(#250,1.);
#249=DERIVED_UNIT_ELEMENT(#423,3.);
#250=(
MASS_UNIT()
NAMED_UNIT(*)
SI_UNIT($,.GRAM.)
);
#251=DERIVED_UNIT((#248,#249));
#252=MEASURE_REPRESENTATION_ITEM('density measure',
POSITIVE_RATIO_MEASURE(1.),#251);
#253=PROPERTY_DEFINITION_REPRESENTATION(#258,#255);
#254=PROPERTY_DEFINITION_REPRESENTATION(#259,#256);
#255=REPRESENTATION('material name',(#257),#418);
#256=REPRESENTATION('density',(#252),#418);
#257=DESCRIPTIVE_REPRESENTATION_ITEM('Generic','Generic');
#258=PROPERTY_DEFINITION('material property','material name',#431);
#259=PROPERTY_DEFINITION('material property','density of part',#431);
#260=DATE_TIME_ROLE('creation_date');
#261=APPLIED_DATE_AND_TIME_ASSIGNMENT(#262,#260,(#431));
#262=DATE_AND_TIME(#263,#264);
#263=CALENDAR_DATE(2020,9,3);
#264=LOCAL_TIME(18,11,50.,#265);
#265=COORDINATED_UNIVERSAL_TIME_OFFSET(0,0,.BEHIND.);
#266=AXIS2_PLACEMENT_3D('placement',#349,#285,#286);
#267=AXIS2_PLACEMENT_3D('',#350,#287,#288);
#268=AXIS2_PLACEMENT_3D('',#353,#289,#290);
#269=AXIS2_PLACEMENT_3D('',#354,#291,#292);
#270=AXIS2_PLACEMENT_3D('',#357,#294,#295);
#271=AXIS2_PLACEMENT_3D('',#358,#296,#297);
#272=AXIS2_PLACEMENT_3D('',#361,#298,#299);
#273=AXIS2_PLACEMENT_3D('',#362,#300,#301);
#274=AXIS2_PLACEMENT_3D('',#365,#303,#304);
#275=AXIS2_PLACEMENT_3D('',#366,#305,#306);
#276=AXIS2_PLACEMENT_3D('',#375,#311,#312);
#277=AXIS2_PLACEMENT_3D('',#384,#317,#318);
#278=AXIS2_PLACEMENT_3D('',#387,#321,#322);
#279=AXIS2_PLACEMENT_3D('',#393,#326,#327);
#280=AXIS2_PLACEMENT_3D('',#399,#331,#332);
#281=AXIS2_PLACEMENT_3D('',#405,#336,#337);
#282=AXIS2_PLACEMENT_3D('',#411,#341,#342);
#283=AXIS2_PLACEMENT_3D('',#413,#344,#345);
#284=AXIS2_PLACEMENT_3D('',#415,#347,#348);
#285=DIRECTION('axis',(0.,0.,1.));
#286=DIRECTION('refdir',(1.,0.,0.));
#287=DIRECTION('center_axis',(0.,-1.,0.));
#288=DIRECTION('ref_axis',(1.,0.,0.));
#289=DIRECTION('center_axis',(0.,-1.,0.));
#290=DIRECTION('ref_axis',(1.,0.,0.));
#291=DIRECTION('center_axis',(0.,-1.,0.));
#292=DIRECTION('ref_axis',(1.,0.,0.));
#293=DIRECTION('',(0.,-1.,0.));
#294=DIRECTION('center_axis',(0.,1.,0.));
#295=DIRECTION('ref_axis',(1.,0.,0.));
#296=DIRECTION('center_axis',(0.,-1.,0.));
#297=DIRECTION('ref_axis',(1.,0.,0.));
#298=DIRECTION('center_axis',(0.,-1.,0.));
#299=DIRECTION('ref_axis',(1.,0.,0.));
#300=DIRECTION('center_axis',(0.,-1.,0.));
#301=DIRECTION('ref_axis',(1.,0.,0.));
#302=DIRECTION('',(0.,-1.,0.));
#303=DIRECTION('center_axis',(0.,1.,0.));
#304=DIRECTION('ref_axis',(1.,0.,0.));
#305=DIRECTION('center_axis',(-1.,0.,0.));
#306=DIRECTION('ref_axis',(0.,0.,-1.));
#307=DIRECTION('',(0.,0.,-1.));
#308=DIRECTION('',(0.,1.,0.));
#309=DIRECTION('',(0.,0.,-1.));
#310=DIRECTION('',(0.,-1.,0.));
#311=DIRECTION('center_axis',(1.,0.,0.));
#312=DIRECTION('ref_axis',(0.,0.,1.));
#313=DIRECTION('',(0.,0.,1.));
#314=DIRECTION('',(0.,1.,0.));
#315=DIRECTION('',(0.,0.,1.));
#316=DIRECTION('',(0.,-1.,0.));
#317=DIRECTION('center_axis',(0.,-1.,0.));
#318=DIRECTION('ref_axis',(0.,0.,-1.));
#319=DIRECTION('',(1.,0.,0.));
#320=DIRECTION('',(-1.,0.,0.));
#321=DIRECTION('center_axis',(0.,1.,0.));
#322=DIRECTION('ref_axis',(0.,0.,1.));
#323=DIRECTION('',(1.,0.,0.));
#324=DIRECTION('',(0.,0.,-1.));
#325=DIRECTION('',(-1.,0.,0.));
#326=DIRECTION('center_axis',(0.,1.,0.));
#327=DIRECTION('ref_axis',(0.,0.,1.));
#328=DIRECTION('',(-1.,0.,0.));
#329=DIRECTION('',(0.,0.,1.));
#330=DIRECTION('',(1.,0.,0.));
#331=DIRECTION('center_axis',(0.,0.,-1.));
#332=DIRECTION('ref_axis',(-1.,0.,0.));
#333=DIRECTION('',(0.,1.,0.));
#334=DIRECTION('',(-1.,0.,0.));
#335=DIRECTION('',(0.,1.,0.));
#336=DIRECTION('center_axis',(0.,0.,1.));
#337=DIRECTION('ref_axis',(1.,0.,0.));
#338=DIRECTION('',(0.,1.,0.));
#339=DIRECTION('',(1.,0.,0.));
#340=DIRECTION('',(0.,1.,0.));
#341=DIRECTION('center_axis',(-1.,0.,0.));
#342=DIRECTION('ref_axis',(0.,0.,1.));
#343=DIRECTION('',(0.,0.,1.));
#344=DIRECTION('center_axis',(1.,0.,0.));
#345=DIRECTION('ref_axis',(0.,0.,-1.));
#346=DIRECTION('',(0.,0.,-1.));
#347=DIRECTION('center_axis',(0.,1.,0.));
#348=DIRECTION('ref_axis',(0.,0.,1.));
#349=CARTESIAN_POINT('',(0.,0.,0.));
#350=CARTESIAN_POINT('Origin',(0.375,-1.59346588560844,-1.125));
#351=CARTESIAN_POINT('',(0.4605,0.125,-1.125));
#352=CARTESIAN_POINT('',(0.2895,0.125,-1.125));
#353=CARTESIAN_POINT('Origin',(0.375,0.125,-1.125));
#354=CARTESIAN_POINT('Origin',(0.375,0.125,-1.125));
#355=CARTESIAN_POINT('',(0.2895,0.,-1.125));
#356=CARTESIAN_POINT('',(0.2895,-1.59346588560844,-1.125));
#357=CARTESIAN_POINT('Origin',(0.375,0.,-1.125));
#358=CARTESIAN_POINT('Origin',(0.375,-1.59346588560844,-0.375));
#359=CARTESIAN_POINT('',(0.4605,0.125,-0.375));
#360=CARTESIAN_POINT('',(0.2895,0.125,-0.375));
#361=CARTESIAN_POINT('Origin',(0.375,0.125,-0.375));
#362=CARTESIAN_POINT('Origin',(0.375,0.125,-0.375));
#363=CARTESIAN_POINT('',(0.2895,0.,-0.375));
#364=CARTESIAN_POINT('',(0.2895,-1.59346588560844,-0.375));
#365=CARTESIAN_POINT('Origin',(0.375,0.,-0.375));
#366=CARTESIAN_POINT('Origin',(0.125,0.375,0.));
#367=CARTESIAN_POINT('',(0.125,0.375,0.));
#368=CARTESIAN_POINT('',(0.125,0.375,-1.5));
#369=CARTESIAN_POINT('',(0.125,0.375,-0.375));
#370=CARTESIAN_POINT('',(0.125,0.125,0.));
#371=CARTESIAN_POINT('',(0.125,0.1875,0.));
#372=CARTESIAN_POINT('',(0.125,0.125,-1.5));
#373=CARTESIAN_POINT('',(0.125,0.125,-1.5));
#374=CARTESIAN_POINT('',(0.125,0.1875,-1.5));
#375=CARTESIAN_POINT('Origin',(0.625,0.375,-1.5));
#376=CARTESIAN_POINT('',(0.625,0.375,-1.5));
#377=CARTESIAN_POINT('',(0.625,0.375,0.));
#378=CARTESIAN_POINT('',(0.625,0.375,-1.125));
#379=CARTESIAN_POINT('',(0.625,0.125,-1.5));
#380=CARTESIAN_POINT('',(0.625,0.1875,-1.5));
#381=CARTESIAN_POINT('',(0.625,0.125,0.));
#382=CARTESIAN_POINT('',(0.625,0.125,0.));
#383=CARTESIAN_POINT('',(0.625,0.1875,0.));
#384=CARTESIAN_POINT('Origin',(0.375,0.125,-0.75));
#385=CARTESIAN_POINT('',(0.5625,0.125,-1.5));
#386=CARTESIAN_POINT('',(0.1875,0.125,0.));
#387=CARTESIAN_POINT('Origin',(0.375,0.375,-0.75));
#388=CARTESIAN_POINT('',(0.75,0.375,0.));
#389=CARTESIAN_POINT('',(0.,0.375,0.));
#390=CARTESIAN_POINT('',(0.75,0.375,-1.5));
#391=CARTESIAN_POINT('',(0.75,0.375,0.));
#392=CARTESIAN_POINT('',(0.75,0.375,-1.5));
#393=CARTESIAN_POINT('Origin',(0.375,0.375,-0.75));
#394=CARTESIAN_POINT('',(0.,0.375,-1.5));
#395=CARTESIAN_POINT('',(0.75,0.375,-1.5));
#396=CARTESIAN_POINT('',(0.,0.375,0.));
#397=CARTESIAN_POINT('',(0.,0.375,-1.5));
#398=CARTESIAN_POINT('',(0.,0.375,0.));
#399=CARTESIAN_POINT('Origin',(0.75,0.,-1.5));
#400=CARTESIAN_POINT('',(0.75,0.,-1.5));
#401=CARTESIAN_POINT('',(0.75,0.,-1.5));
#402=CARTESIAN_POINT('',(0.,0.,-1.5));
#403=CARTESIAN_POINT('',(0.75,0.,-1.5));
#404=CARTESIAN_POINT('',(0.,0.,-1.5));
#405=CARTESIAN_POINT('Origin',(0.,0.,0.));
#406=CARTESIAN_POINT('',(0.,0.,0.));
#407=CARTESIAN_POINT('',(0.,0.,0.));
#408=CARTESIAN_POINT('',(0.75,0.,0.));
#409=CARTESIAN_POINT('',(0.,0.,0.));
#410=CARTESIAN_POINT('',(0.75,0.,0.));
#411=CARTESIAN_POINT('Origin',(0.,0.,-1.5));
#412=CARTESIAN_POINT('',(0.,0.,-1.5));
#413=CARTESIAN_POINT('Origin',(0.75,0.,0.));
#414=CARTESIAN_POINT('',(0.75,0.,0.));
#415=CARTESIAN_POINT('Origin',(0.375,0.,-0.75));
#416=UNCERTAINTY_MEASURE_WITH_UNIT(LENGTH_MEASURE(0.000393700787401575),
#421,'DISTANCE_ACCURACY_VALUE',
'Maximum model space distance between geometric entities at asserted c
onnectivities');
#417=UNCERTAINTY_MEASURE_WITH_UNIT(LENGTH_MEASURE(0.000393700787401575),
#421,'DISTANCE_ACCURACY_VALUE',
'Maximum model space distance between geometric entities at asserted c
onnectivities');
#418=(
GEOMETRIC_REPRESENTATION_CONTEXT(3)
GLOBAL_UNCERTAINTY_ASSIGNED_CONTEXT((#416))
GLOBAL_UNIT_ASSIGNED_CONTEXT((#421,#425,#426))
REPRESENTATION_CONTEXT('','3D')
);
#419=(
GEOMETRIC_REPRESENTATION_CONTEXT(3)
GLOBAL_UNCERTAINTY_ASSIGNED_CONTEXT((#417))
GLOBAL_UNIT_ASSIGNED_CONTEXT((#421,#425,#426))
REPRESENTATION_CONTEXT('','3D')
);
#420=DIMENSIONAL_EXPONENTS(1.,0.,0.,0.,0.,0.,0.);
#421=(
CONVERSION_BASED_UNIT('inch',#424)
LENGTH_UNIT()
NAMED_UNIT(#420)
);
#422=(
LENGTH_UNIT()
NAMED_UNIT(*)
SI_UNIT(.MILLI.,.METRE.)
);
#423=(
LENGTH_UNIT()
NAMED_UNIT(*)
SI_UNIT(.CENTI.,.METRE.)
);
#424=LENGTH_MEASURE_WITH_UNIT(LENGTH_MEASURE(25.4),#422);
#425=(
NAMED_UNIT(*)
PLANE_ANGLE_UNIT()
SI_UNIT($,.RADIAN.)
);
#426=(
NAMED_UNIT(*)
SI_UNIT($,.STERADIAN.)
SOLID_ANGLE_UNIT()
);
#427=SHAPE_DEFINITION_REPRESENTATION(#428,#429);
#428=PRODUCT_DEFINITION_SHAPE('',$,#431);
#429=SHAPE_REPRESENTATION('',(#266),#418);
#430=PRODUCT_DEFINITION_CONTEXT('part definition',#435,'design');
#431=PRODUCT_DEFINITION('Acopian GB Bracket','Acopian GB Bracket',#432,
#430);
#432=PRODUCT_DEFINITION_FORMATION('',$,#437);
#433=PRODUCT_RELATED_PRODUCT_CATEGORY('Acopian GB Bracket',
'Acopian GB Bracket',(#437));
#434=APPLICATION_PROTOCOL_DEFINITION('international standard',
'automotive_design',2009,#435);
#435=APPLICATION_CONTEXT(
'Core Data for Automotive Mechanical Design Process');
#436=PRODUCT_CONTEXT('part definition',#435,'mechanical');
#437=PRODUCT('Acopian GB Bracket','Acopian GB Bracket',$,(#436));
#438=PRESENTATION_STYLE_ASSIGNMENT((#439));
#439=SURFACE_STYLE_USAGE(.BOTH.,#442);
#440=SURFACE_STYLE_RENDERING_WITH_PROPERTIES($,#446,(#441));
#441=SURFACE_STYLE_TRANSPARENT(0.);
#442=SURFACE_SIDE_STYLE('',(#443,#440));
#443=SURFACE_STYLE_FILL_AREA(#444);
#444=FILL_AREA_STYLE('',(#445));
#445=FILL_AREA_STYLE_COLOUR('',#446);
#446=COLOUR_RGB('',0.749019607843137,0.749019607843137,0.749019607843137);
ENDSEC;
END-ISO-10303-21;
